0
SECTION
2
HEADER
9
$INSUNITS
70
4
9
$ACADVER
1
AC1014
9
$HANDSEED
5
FFFF
0
ENDSEC
0
SECTION
2
TABLES
0
TABLE
2
VPORT
5
8
100
AcDbSymbolTable
0
ENDTAB
0
TABLE
2
LTYPE
5
5
100
AcDbSymbolTable
0
LTYPE
5
14
100
AcDbSymbolTableRecord
100
AcDbLinetypeTableRecord
2
BYBLOCK
70
0
0
LTYPE
5
15
100
AcDbSymbolTableRecord
100
AcDbLinetypeTableRecord
2
BYLAYER
70
0
0
LTYPE
5
16
100
AcDbSymbolTableRecord
100
AcDbLinetypeTableRecord
2
DASHED
70
0
3
Dashed __ __ __ __ __ __ __ __ __ __ __ __ __ _
72
65
73
2
40
0.75
49
0.5
74
0
49
-0.25
74
0
0
ENDTAB
0
TABLE
2
LAYER
5
2
100
AcDbSymbolTable
70
2
0
LAYER
5
50
100
AcDbSymbolTableRecord
100
AcDbLayerTableRecord
2
0
70
0
62
7
6
CONTINUOUS
0
ENDTAB
0
TABLE
2
STYLE
5
3
100
AcDbSymbolTable
70
1
0
STYLE
5
11
100
AcDbSymbolTableRecord
100
AcDbTextStyleTableRecord
2
STANDARD
70
0
0
ENDTAB
0
TABLE
2
VIEW
5
6
100
AcDbSymbolTable
70
0
0
ENDTAB
0
TABLE
2
UCS
5
7
100
AcDbSymbolTable
70
0
0
ENDTAB
0
TABLE
2
APPID
5
9
100
AcDbSymbolTable
70
2
0
APPID
5
12
100
AcDbSymbolTableRecord
100
AcDbRegAppTableRecord
2
ACAD
70
0
0
ENDTAB
0
TABLE
2
DIMSTYLE
5
A
100
AcDbSymbolTable
70
1
0
ENDTAB
0
TABLE
2
BLOCK_RECORD
5
1
100
AcDbSymbolTable
70
1
0
BLOCK_RECORD
5
1F
100
AcDbSymbolTableRecord
100
AcDbBlockTableRecord
2
*MODEL_SPACE
0
BLOCK_RECORD
5
1B
100
AcDbSymbolTableRecord
100
AcDbBlockTableRecord
2
*PAPER_SPACE
0
ENDTAB
0
ENDSEC
0
SECTION
2
BLOCKS
0
BLOCK
5
20
100
AcDbEntity
100
AcDbBlockBegin
2
*MODEL_SPACE
0
ENDBLK
5
21
100
AcDbEntity
100
AcDbBlockEnd
0
BLOCK
5
1C
100
AcDbEntity
100
AcDbBlockBegin
2
*PAPER_SPACE
0
ENDBLK
5
1D
100
AcDbEntity
100
AcDbBlockEnd
0
ENDSEC
0
SECTION
2
ENTITIES
0
LWPOLYLINE
5
100
100
AcDbEntity
8
0
100
AcDbPolyline
90
4
70
1
43
0.0
10
28.900000000000006
20
-6.9999999491407952
10
28.900000000000006
20
-26.999999949140793
42
-0.99999999999999989
10
25.700000000000003
20
-26.999999949140793
10
25.700000000000003
20
-6.9999999491407952
42
-0.99999999999999989
0
LWPOLYLINE
5
101
100
AcDbEntity
8
0
100
AcDbPolyline
90
4
70
1
43
0.0
10
28.900000000000006
20
24.000000050859207
10
28.900000000000006
20
4.0000000508592057
42
-0.99999999999999989
10
25.700000000000003
20
4.0000000508592057
10
25.700000000000003
20
24.000000050859207
42
-0.99999999999999989
0
LWPOLYLINE
5
102
100
AcDbEntity
8
0
100
AcDbPolyline
90
4
70
1
43
0.0
10
17.600000000000001
20
-6.9999999491407952
10
17.600000000000001
20
-26.999999949140793
42
-0.99999999999999989
10
14.399999999999999
20
-26.999999949140793
10
14.399999999999999
20
-6.9999999491407952
42
-0.99999999999999989
0
LWPOLYLINE
5
103
100
AcDbEntity
8
0
100
AcDbPolyline
90
4
70
1
43
0.0
10
17.600000000000001
20
24.000000050859207
10
17.600000000000001
20
4.0000000508592057
42
-0.99999999999999989
10
14.399999999999999
20
4.0000000508592057
10
14.399999999999999
20
24.000000050859207
42
-0.99999999999999989
0
LWPOLYLINE
5
104
100
AcDbEntity
8
0
100
AcDbPolyline
90
8
70
1
43
0.0
10
-72
20
8.5000000508592368
10
-68
20
8.5000000508592457
42
-0.41421356237309148
10
-66
20
6.5000000508592235
10
-66
20
-9.4999999491407596
42
-0.41421356237309515
10
-68.000000000000014
20
-11.499999949140772
10
-72
20
-11.499999949140772
42
-0.41421356237309259
10
-74
20
-9.4999999491407596
10
-74
20
6.500000050859235
42
-0.4142135623730942
0
LWPOLYLINE
5
105
100
AcDbEntity
8
0
100
AcDbPolyline
90
8
70
1
43
0.0
10
46
20
19.000000050859217
10
46.000000000000007
20
-21.999999949140779
42
-0.41421356237309176
10
44
20
-23.999999949140776
10
36
20
-23.999999949140776
42
-0.4142135623730957
10
34
20
-21.999999949140779
10
33.999999999999993
20
19.000000050859235
42
-0.41421356237309537
10
36
20
21.000000050859235
10
44
20
21.000000050859235
42
-0.41421356237309337
0
LWPOLYLINE
5
106
100
AcDbEntity
8
0
100
AcDbPolyline
90
15
70
1
43
0.0
10
1.7880939027814287
20
13.817094003415074
42
0.00016181614514578524
10
1.791238951522437
20
13.817857189999936
42
-0.54819135126390428
10
3.1515281151604202
20
15.950000050824274
10
10.000000000140316
20
15.950000050759034
10
10.000000000165244
20
19.050000050766638
10
-0.099999999845255955
20
19.050000050850628
42
0.24132640175319145
10
-2.0999999998451826
20
18.025000050854857
42
-0.2413264017495583
10
-4.0999999998391701
20
17.000000050863758
10
-14.203351983541292
20
17.000000050839411
42
0.99969532068291223
10
-14.199999999993938
20
5.9999989697836362
42
0.99999999999999989
10
-14.200000000000003
20
9.4999999911995285
42
-0.99999999999999989
10
-14.200000000000003
20
13.500000050859205
10
-3.200000000002206
20
13.500001020531126
42
-0.99999999999999989
10
-3.1999999999977939
20
9.4999990215378407
42
0.99999999999999989
10
-3.199999999993933
20
5.9999995386572724
42
0.5481422935854634
0
LWPOLYLINE
5
107
100
AcDbEntity
8
0
100
AcDbPolyline
90
15
70
1
43
0.0
10
-2.099982683818395
20
-21.024999949070462
42
0.2413282612017397
10
-4.0999653680884443
20
-19.999999948901937
10
-14.203351983541239
20
-19.999999949120998
42
-0.99969532068291223
10
-14.199999999993938
20
-8.9999988680652283
42
-0.99999999999999989
10
-14.199999999997797
20
-12.499999889481115
42
0.99999999999999989
10
-14.200000000000003
20
-16.49999994914079
10
-3.2000000000000006
20
-16.500000918812717
42
0.99999999999999989
10
-3.1999999999977939
20
-12.499998919819429
42
-0.99999999999999989
10
-3.199999999993933
20
-8.999999436938861
42
-0.54814238103269852
10
1.7880932795459255
20
-16.817095243360569
42
-0.00016181613566905426
10
1.7912383281065127
20
-16.817858429809451
42
0.54819173139772437
10
3.1515313478447609
20
-18.949999949206667
10
10.000000000140316
20
-18.949999949206667
10
10.000000000140339
20
-22.049999949206672
10
-0.099999999859661376
20
-22.049999949076394
42
-0.24132826120237627
0
LWPOLYLINE
5
108
100
AcDbEntity
8
0
100
AcDbPolyline
90
4
70
1
43
0.0
10
-24.92944391335147
20
19.050000050880943
10
-24.92944391335147
20
15.950000050880943
10
-35.02944391335145
20
15.950000050880943
10
-35.029443913351443
20
19.050000050880943
0
LWPOLYLINE
5
109
100
AcDbEntity
8
0
100
AcDbPolyline
90
4
70
1
43
0.0
10
-24.929443913351378
20
-18.949999949119064
10
-24.929443913351371
20
-22.049999949119062
10
-35.029443913351329
20
-22.049999949119055
10
-35.029443913351336
20
-18.949999949119061
0
LWPOLYLINE
5
110
100
AcDbEntity
8
0
100
AcDbPolyline
90
8
70
1
43
0.0
10
0.49999999999999978
20
-32.999999949140374
42
0.99999999999999989
10
0.49999999999999045
20
-36.499999949139919
42
-0.99999999999999989
10
0.50000000000000044
20
-40.499999950189014
10
-10.500000000000004
20
-40.500000380116852
42
-0.99999999999999989
10
-10.500000000000004
20
-36.499999519202873
42
0.99999999999999989
10
-10.500000000000005
20
-32.99999973417161
42
1.0001397982966145
10
-10.498462326180197
20
-43.999999950198969
10
0.49997846356703296
20
-43.999999950146851
42
1.0000019578608301
0
LWPOLYLINE
5
111
100
AcDbEntity
8
0
100
AcDbPolyline
90
8
70
1
43
0.0
10
0.49999999999999994
20
33.500000050858333
42
0.99999999999999989
10
0.49999999999999961
20
30.000000050858784
42
1.0000019578608301
10
0.49997846356703235
20
41.000000051910462
10
-10.498462326180199
20
41.000000051917382
42
1.000139798296813
10
-10.500000000000004
20
30.000000050858773
42
0.99999999999999989
10
-10.5
20
33.500000050848264
42
-0.99999999999999989
10
-10.5
20
37.500000051908302
10
0.49999999999999983
20
37.500000051907428
42
-0.99999999999999989
0
LWPOLYLINE
5
112
100
AcDbEntity
8
0
100
AcDbPolyline
90
4
70
1
43
0.0
10
-64.999999999999886
20
19.95000005085922
10
-75.099999999999909
20
19.950000050859224
10
-75.099999999999881
20
23.050000050859222
10
-64.999999999999872
20
23.050000050859222
0
LWPOLYLINE
5
113
100
AcDbEntity
8
0
100
AcDbPolyline
90
4
70
1
43
0.0
10
-75.099999999999909
20
-22.949999949140746
10
-64.999999999999901
20
-22.949999949140746
10
-64.999999999999901
20
-26.049999949140741
10
-75.099999999999909
20
-26.049999949140741
0
CIRCLE
5
114
100
AcDbEntity
8
0
100
AcDbCircle
10
-22.933919791847146
20
-1.4999999491407943
30
0
40
1.749999999999998
210
0
220
-0
230
1
0
LWPOLYLINE
5
115
100
AcDbEntity
8
0
100
AcDbPolyline
90
4
70
1
43
0.0
10
65.761113598782558
20
36.600000050864224
10
56.061113598779031
20
36.600000050864224
10
56.061113598779031
20
39.700000050864226
10
65.761113598782558
20
39.700000050864226
0
CIRCLE
5
116
100
AcDbEntity
8
0
100
AcDbCircle
10
-50.84136970602642
20
14.612373771206615
30
0
40
1.749999999999998
210
0
220
-0
230
1
0
CIRCLE
5
117
100
AcDbEntity
8
0
100
AcDbCircle
10
-50.841369706026434
20
-17.612373669488196
30
0
40
1.749999999999998
210
0
220
-0
230
1
0
LWPOLYLINE
5
118
100
AcDbEntity
8
0
100
AcDbPolyline
90
4
70
1
43
0.0
10
56.061113598779244
20
-42.699999949135758
10
56.061113598779244
20
-39.599999949135764
10
65.761113598782771
20
-39.599999949135764
10
65.761113598779247
20
-42.699999949135758
0
LWPOLYLINE
5
119
100
AcDbEntity
8
0
100
AcDbPolyline
90
4
70
1
43
0.0
10
23.761113598699993
20
-39.599999949140795
10
33.461113598699995
20
-39.599999949140795
10
33.461113598699995
20
-42.699999949140789
10
23.761113598699993
20
-42.699999949140789
0
LWPOLYLINE
5
120
100
AcDbEntity
8
0
100
AcDbPolyline
90
4
70
1
43
0.0
10
33.461113598779022
20
39.700000050864233
10
33.461113598779022
20
36.600000050864239
10
23.761113598779016
20
36.600000050864239
10
23.761113598779016
20
39.700000050864233
0
LWPOLYLINE
5
121
100
AcDbEntity
8
0
100
AcDbPolyline
90
10
70
1
43
0.0
10
78.999999999980204
20
-49.299999949103167
42
0.41421356237203105
10
86.999999999959101
20
-41.299999949128591
10
86.999999999977348
20
38.300000050877898
42
0.41421356237240781
10
78.999999999972658
20
46.300000050887391
10
-4.0000000000058122
20
46.300000050864227
10
-71.328792278754108
20
31.373566160419301
42
0.35166522217016372
10
-86.999999999992511
20
11.847646018019542
10
-87.000000000077193
20
-14.847645916361206
42
0.3516652221706647
10
-71.328792278758172
20
-34.373566058885558
10
-4.0000000000058211
20
-49.299999949135781
0
LWPOLYLINE
5
122
100
AcDbEntity
8
0
100
AcDbPolyline
90
36
70
1
43
0.0
10
86.999999999991672
20
-61.299999949099998
42
0.41421356237310802
10
85.999999999991303
20
-60.299999949100396
10
78.999999999991289
20
-60.299999949103139
10
78.999999999990123
20
-57.299999949103139
10
76.999999999990109
20
-57.299999949103928
10
76.99999999998893
20
-54.299999949103928
10
66.99999999998893
20
-54.299999949107864
10
66.999999999990109
20
-57.299999949107857
10
41.999999999990116
20
-57.299999949117684
10
41.999999999988937
20
-54.299999949117684
10
31.999999999988937
20
-54.299999949121613
10
31.999999999990113
20
-57.299999949121613
10
21.999999999990116
20
-57.299999949125535
42
0.66817863791930288
10
20.93933982821131
20
-59.860660120905784
10
23.340748923842458
20
-62.26206921653494
10
21.219428580283683
20
-64.383389560095438
10
22.987195533250748
20
-66.15115651306111
10
25.108515876809527
20
-64.029836169500626
10
31.661981524848997
20
-70.583301817534732
42
0.41421356237309132
10
33.076195087222089
20
-70.583301817534164
10
33.429748477815238
20
-70.229748426940731
42
-0.4142135623730932
10
35.551068821374869
20
-70.229748426939892
10
38.379495946122184
20
-73.058175551684911
42
-0.41421356237309442
10
38.379495946123036
20
-75.179495895244557
10
38.025942555529944
20
-75.533049285837947
42
0.41421356237309681
10
38.02594255553052
20
-76.947262848211054
10
69.881054036741659
20
-108.80237432939612
10
67.759733693182966
20
-110.92369467295663
10
69.527500646150031
20
-112.69146162592233
10
71.648820989708838
20
-110.57014128236182
10
74.123694723862755
20
-113.04501501651373
42
0.41421356237310236
10
75.537908286235847
20
-113.04501501651313
10
81.208330229124712
20
-107.37459307361961
42
0.40301923236998066
10
81.234935157546346
20
-105.98802538319475
42
-0.47314161890837159
10
86.522772543874964
20
-67.585421538581315
42
0.26086067047375616
10
86.999999999993832
20
-66.732949329436224
0
LWPOLYLINE
5
123
100
AcDbEntity
8
0
100
AcDbPolyline
90
14
70
1
43
0.0
10
42.106601717791904
20
-65.29999994911762
10
72.535350539128501
20
-65.299999949105668
42
-0.62076341313161354
10
74.921073114014874
20
-70.118880867605583
42
0.18644337972632033
10
68.674198326643705
20
-91.621229722544356
42
-0.69970469501164168
10
63.563943639153308
20
-93.99998255757788
10
55.272959549827306
20
-85.708998468258656
42
-0.99999999999999989
10
57.394279893386113
20
-83.587678124698158
10
57.74783328397951
20
-83.941231515291292
42
0.99999999999999989
10
59.869153627538275
20
-81.81991117173078
10
52.090979034483126
20
-74.041736578681906
42
0.99999999999999989
10
49.969658690924334
20
-76.163056922242419
10
50.323212081517738
20
-76.516610312835596
42
-0.99999999999999989
10
48.201891737958952
20
-78.637930656396094
10
39.985281374234326
20
-70.421320292678104
42
-0.66817863791930243
0
LWPOLYLINE
5
124
100
AcDbEntity
8
0
100
AcDbPolyline
90
16
70
1
43
0.0
10
53.392787124285874
20
-99.385175228816536
10
46.321719312417507
20
-92.314107416953959
10
44.200398968858742
20
-94.435427760514457
10
40.664865062924555
20
-90.899893854583169
10
33.593797251059023
20
-90.899893854586011
42
0.34645400814518967
10
25.428106260745494
20
-97.329743948955297
42
0.26124759627278044
10
26.912102279647154
20
-102.60297519402229
10
31.154742966768168
20
-106.84561588113986
10
40.744640646599834
20
-98.05073725012096
10
41.893666330658483
20
-99.303629894114692
10
32.357947907689152
20
-108.04882082205985
10
34.47926825124965
20
-110.17014116561865
42
0.15725613909965086
10
37.336840151170257
20
-111.63408080610004
42
0.24124340094845528
10
53.392787124288752
20
-106.45624304068204
10
54.807000686661269
20
-105.04202947830834
10
51.271466780727096
20
-101.50649557237705
0
LWPOLYLINE
5
125
100
AcDbEntity
8
0
100
AcDbPolyline
90
16
70
1
43
0.0
10
30.765370126307054
20
-76.757758230856226
10
23.694302314438694
20
-69.686690418993635
10
21.572981970879923
20
-71.808010762554147
10
18.037448064945728
20
-68.272476856622859
10
10.966380253080199
20
-68.272476856625701
42
0.3464540081451899
10
2.8006892627666744
20
-74.702326950995001
42
0.26124759627278005
10
4.2846852816683345
20
-79.975558196061982
10
8.5273259687893486
20
-84.218198883179554
10
18.117223648621007
20
-75.423320252160664
10
19.266249332679667
20
-76.676212896154382
10
9.7305309097103301
20
-85.421403824099542
10
11.85185125327083
20
-87.542724167658321
42
0.15725613909965072
10
14.709423153191434
20
-89.006663808139734
42
0.24124340094845512
10
30.765370126309932
20
-83.828826042721744
10
32.179583688682449
20
-82.414612480348026
10
28.644049782748276
20
-78.879078574416738
0
LWPOLYLINE
5
126
100
AcDbEntity
8
0
100
AcDbPolyline
90
36
70
1
43
0.0
10
3.9999999999916431
20
-61.299999949132612
42
0.41421356237309909
10
2.9999999999912541
20
-60.299999949132996
10
-4.0000000000087272
20
-60.299999949135753
10
-4.0000000000099067
20
-57.299999949135767
10
-6.0000000000098996
20
-57.299999949136549
10
-6.0000000000110791
20
-54.299999949136563
10
-16.000000000011049
20
-54.299999949140485
10
-16.000000000009873
20
-57.299999949140471
10
-41.000000000009805
20
-57.299999949150305
10
-41.000000000010985
20
-54.299999949150319
10
-51.000000000010949
20
-54.299999949154241
10
-51.000000000009777
20
-57.299999949154234
10
-61.000000000009742
20
-57.299999949158156
42
0.66817863791930521
10
-62.060660171788555
20
-59.860660120938398
10
-59.659251076157396
20
-62.262069216567554
10
-61.780571419716168
20
-64.383389560128052
10
-60.012804466749117
20
-66.15115651309371
10
-57.891484123190338
20
-64.029836169533226
10
-51.338018475150889
20
-70.583301817567332
42
0.41421356237309132
10
-49.923804912777797
20
-70.583301817566763
10
-49.570251522184662
20
-70.229748426973345
42
-0.41421356237309254
10
-47.448931178625031
20
-70.229748426972492
10
-44.620504053877738
20
-73.058175551717525
42
-0.41421356237309381
10
-44.620504053876871
20
-75.179495895277157
10
-44.974057444469949
20
-75.533049285870547
42
0.41421356237310053
10
-44.974057444469373
20
-76.947262848243639
10
-13.118945963258337
20
-108.80237432942866
10
-15.240266306817025
20
-110.92369467298917
10
-13.472499353849958
20
-112.69146162595487
10
-11.351179010291172
20
-110.57014128239433
10
-8.8763052761372503
20
-113.04501501654626
42
0.41421356237310536
10
-7.4620917137641616
20
-113.04501501654568
10
-1.7916697708753271
20
-107.37459307365215
42
0.40301923236998016
10
-1.7650648424536675
20
-105.9880253832273
42
-0.47314161890837048
10
3.5227725438748947
20
-67.585421538613929
42
0.26086067047376349
10
3.9999999999937779
20
-66.732949329468838
0
LWPOLYLINE
5
127
100
AcDbEntity
8
0
100
AcDbPolyline
90
14
70
1
43
0.0
10
-40.893398282208011
20
-65.299999949150219
10
-10.464649460871504
20
-65.299999949138268
42
-0.62076341313161609
10
-8.0789268859851315
20
-70.118880867638197
42
0.18644337972631969
10
-14.325801673356287
20
-91.621229722576857
42
-0.69970469501164134
10
-19.436056360846678
20
-93.999982557610451
10
-27.727040450172655
20
-85.708998468291227
42
-0.99999999999999989
10
-25.60572010661387
20
-83.587678124730743
10
-25.252166716020454
20
-83.941231515323864
42
1.0000000074505804
10
-23.130846372461686
20
-81.81991117176338
10
-30.90902096551682
20
-74.04173657871452
42
0.99999999999999989
10
-33.030341309075602
20
-76.163056922275018
10
-32.676787918482205
20
-76.516610312868181
42
-0.99999999999999989
10
-34.798108262040977
20
-78.637930656428679
10
-43.014718625765589
20
-70.421320292710718
42
-0.66817863791930243
0
CIRCLE
5
128
100
AcDbEntity
8
0
100
AcDbCircle
10
-41.854483723641174
20
-96.428996425119905
30
0
40
0.500000000000001
210
2.1895288505075267e-46
220
2.1999331353376335e-60
230
1
0
CIRCLE
5
129
100
AcDbEntity
8
0
100
AcDbCircle
10
-69.354483723641209
20
-96.428996425120204
30
0
40
0.500000000000001
210
2.1895288505075267e-46
220
2.1999331353376335e-60
230
1
0
LWPOLYLINE
5
130
100
AcDbEntity
8
0
100
AcDbPolyline
90
18
70
1
43
0.0
10
-76.504483723644711
20
-100.79203316280406
10
-76.504483723644626
20
-109.05399642512025
42
0.41421356237309853
10
-75.004483723644611
20
-110.55399642512023
10
-36.204483723637502
20
-110.55399642511983
42
0.41421356237309587
10
-34.704483723637502
20
-109.05399642511981
10
-34.704483723637587
20
-100.79203316280363
42
0.078852234216221589
10
-34.778176576407645
20
-100.32765409161202
10
-37.867304816587001
20
-90.839617353928261
42
0.32475431167495772
10
-39.293611963816957
20
-89.803996425119891
10
-42.704483723641253
20
-89.803996425119919
42
0.41421356237309509
10
-44.204483723641239
20
-91.303996425119948
10
-44.204483723641104
20
-104.55399642511992
10
-67.004483723641115
20
-104.55399642512015
10
-67.004483723641258
20
-91.303996425120175
42
0.41421356237309509
10
-68.504483723641272
20
-89.803996425120189
10
-71.915355483465575
20
-89.803996425120232
42
0.32475431167495872
10
-73.34166263069551
20
-90.839617353928631
10
-76.43079087087466
20
-100.32765409161246
42
0.078852234216216094
0
CIRCLE
5
131
100
AcDbEntity
8
0
100
AcDbCircle
10
-66.886574268341491
20
-77.653996425116489
30
0
40
0.50000000000000033
210
1.313717310304516e-46
220
-1.2944357951019763e-60
230
1
0
CIRCLE
5
132
100
AcDbEntity
8
0
100
AcDbCircle
10
-66.886574268341235
20
-50.153996425116496
30
0
40
0.50000000000000033
210
1.313717310304516e-46
220
-1.2944357951019763e-60
230
1
0
LWPOLYLINE
5
133
100
AcDbEntity
8
0
100
AcDbPolyline
90
18
70
1
43
0.0
10
-71.249611006024949
20
-43.003996425112909
10
-79.511574268341136
20
-43.003996425112831
42
0.41421356237309331
10
-81.011574268341136
20
-44.503996425112803
10
-81.011574268341519
20
-83.303996425119863
42
0.41421356237309509
10
-79.511574268341533
20
-84.803996425119891
10
-71.249611006025361
20
-84.80399642511999
42
0.078852234216221409
10
-70.785231934833746
20
-84.730303572349925
10
-61.297195197149932
20
-81.641175332170775
42
0.32475431167495822
10
-60.261574268341533
20
-80.21486818494084
10
-60.261574268341498
20
-76.803996425116551
42
0.41421356237309681
10
-61.761574268341491
20
-75.303996425116523
10
-75.011574268341462
20
-75.303996425116395
10
-75.011574268341235
20
-52.503996425116412
10
-61.761574268341249
20
-52.50399642511654
42
0.41421356237309331
10
-60.261574268341249
20
-51.003996425116569
10
-60.261574268341214
20
-47.593124665292272
42
0.32475431167496011
10
-61.297195197149591
20
-46.166817518062317
10
-70.785231934833334
20
-43.077689277882982
42
0.078852234216220701
0
ENDSEC
0
SECTION
2
OBJECTS
0
DICTIONARY
5
C
100
AcDbDictionary
3
ACAD_GROUP
350
D
3
ACAD_MLINESTYLE
350
17
0
DICTIONARY
5
D
100
AcDbDictionary
0
DICTIONARY
5
1A
330
C
100
AcDbDictionary
0
DICTIONARY
5
17
100
AcDbDictionary
0
ENDSEC
0
EOF
